Lied zu eurer jetzigen Stimmung

Benutzer80894 

Verbringt hier viel Zeit
ASP - und wir tanzten

Und wir tanzten im Schnee vergangenes Jahr
Der Mond funkelte sanft in Deinem Haar
Und es tut auch kaum mehr weh
wenn ich alles vor mir seh
als ob's letzte Nacht gewesen, sternenklar

Deine Haut und Stolz bleibt mir schon lang nicht mehr
Ich gäbe alles für ein Zaubermittel her
Eins das dich mich lieben macht
Länger als nur eine Nacht
Doch meine Arme und die Nächte bleiben leer

Nur dieses eine Mal noch schenk mir Kraft für einen neuen Tag
Ich stehe nackt und hilflos vor dem Morgen nie war ich so stark
Nur einen Tag noch Kraft und ich reiß alle Mauern um mich ein
Nur wer sich öffnet für den Schmerz läßt auch die Liebe mit hinein

Und wir tanzten im Schnee vergangenes Jahr
Der Mond funkelte sanft in deinem Haar
Und es tut auch kaum mehr weh
Wenn ich alles vor mir seh
Als ob's gestern war und nicht vergangenes Jahr

Will ich es greifen ist es schon nicht mehr da
Niemand war mir jemals ferner und so nah
Nicht mal Stille sagt wie tief
Wie ein ungeschickter Brief
Was zerbrach als ich in Deine Augen sah

Auch dieser Brief bleibt ungeschickt von mir
das schönste Lied schrieb ich nicht auf Papier
Ich schrieb es in Dein Gesicht
mit den Fingern, siehst du nicht
was mein Mund Dir hinterließ
Schau auf deine Haut und lies
Such wo meine Zunge war
Such mein Lied in deinem Haar
Willst Du mein Gefühl verstehen
Musst Du Dich in Dir ansehen
Schließ die Augen und Du siehst ich bin in Dir

Ich breite meine Arme aus empfange Dich komm an mein Herz
Ich heile Dich laß einfach los und gib mir Deinen ganzen Schmerz
Renn einfach weg, lauf vor mir fort, lebe Dein Leben ohne mich
Wo immer Du auch hingehst wartet meine Liebe schon auf Dich

Und wir tanzten im Schnee vergangenes Jahr
Der Mond funkelte sanft in Deinem Haar
Und es tut auch kaum mehr weh
Wenn ich alles vor mir seh
Als ob's gestern war und nicht vergangenes Jahr

Und wir tanzten im Schnee vergangenes Jahr
Der Mond schien so sanft in deinem Haar
Wenn Du mich nicht siehst bin ich
Einfach nicht mehr wesentlich
Löse mich auf wie Schnee vom vergangenen Jahr
 

Benutzer79717 

Verbringt hier viel Zeit
Joe Satriani - Summer Song

|-----------------|-----------------|-----------------|-----------------|
|-----------------|-----------------|-----------------|-----------------|
|---------5-------|-----------------|---------5-------|-----------------|
|-------5---5-----|-----------------|-------5---5-----|-----------------|
|---5-4-------4-5-|-----------------|---5-4-------4-5-|-----------------|
|-----------------|-----------------|-----------------|-----------------|
1 & 2 & 3 & 4 & 1 & 2 & 3 & 4 & 1 & 2 & 3 & 4 & 1 & 2 & 3 & 4 &

|-----------------|-----------------|-----------------|-----------------|
|-----------------|-----------------|-----------------|-----------------|
|-----------------|-----------------|---------5-------|---------5-------|
|-------5---------|---5-------------|-------5---5-----|-------5---5-----|
|---5-4---4-5---5-|-4---4-5---------|---5-4-------4-5-|---5-4-------4-5-|
|-----------------|-----------------|-----------------|-----------------|
1 & 2 & 3 & 4 & 1 & 2 & 3 & 4 & 1 & 2 & 3 & 4 & 1 & 2 & 3 & 4 &

|-----------------|-----------------|-----------------|
|-----------------|-----------------|-----------------|
|-----------------|---------5-------|-----------------|
|-------5---------|-------5---5-----|-----------------|
|---5-4---4-5-----|---5-4-------4-5-|-----------------|
|-----------------|-----------------|-----------------|
1 & 2 & 3 & 4 & 1 & 2 & 3 & 4 & 1 & 2 & 3 & 4 &

Main part thingy:
1/2 (slight vib.) trem.
|-------------------------------------------------------------------------|
|-----10------------------------------------10----------------------------|
|-X-9----9---11^-9-7-9/11-9-9~~~~~~~~\(0)-9----9--11^-9-7-7/9.....\2~~~~~~|
|-------------------------------------------------------------------------|
|-------------------------------------------------------------------------|
|-------------------------------------------------------------------------|

1/2 1/2
|-------------------------------------------------------------------------|
|------------10---------------------------P-------------------------------|
|-(2)/(19)-9----9-11-11' `~~~-9\7/9-11-11^-(9)-9\7--9/11--9~~~~~~~~(9)~~~~|
|-------------------------------------------------------------------------|
|-------------------------------------------------------------------------|
|-------------------------------------------------------------------------|

1/2 1
|---H---------------------------------------------------------------------|
|-10-12-14-14'--`-12~~~~--------------------------------------------------|
|------------------------14---14'---(14)--`-14~~~~~~~~~~~~~~~~~~~~~~~~~~\-|
|-------------------------------------------------------------------------|
|-------------------------------------------------------------------------|
|-------------------------------------------------------------------------|

1/2 1/2
|----17------------------------------------------------17-----------------|
|-17----17---19'-`--17--15--17/19--17--17~~~~~~~~~--17----17--19'-`-17-15-|
|-------------------------------------------------------------------------|
|-------------------------------------------------------------------------|
|-------------------------------------------------------------------------|
|-------------------------------------------------------------------------|

Harm.------------| 1/2 1/2
|------------------------------------------17--------------------P--H-----|
|-17~~~~~~~~~~~-------------------------17----17-19-19'-19'`'`-17-15-17---|
|-----------------------------5-------------------------------------------|
|---------------7\5/7-------5---5-----------------------------------------|
|---------------------4-5-4-------4-5-------------------------------------|
|-------------------------------------5-----------------------------------|

H 1/2 1 AH
|-----------P-----------------------17-19-21-21^--19~~~~17--17'--------`17|
|19'~~~~`-17-15--19--17~~~~~~~~~~~\---------------------------------------|
|-------------------------------------------------------------------------|
|-------------------------------------------------------------------------|
|-------------------------------------------------------------------------|
|-------------------------------------------------------------------------|

1 1 1/2 1 1/2 1/2
|(17)~~~~~~~~~~X\---||-8'--8'~~~~~-8-5----5-------------------------------|
|--------------X\-5-||-----------------8'----8'~~~8-7^-5------------------|
|-------------------||-----------------------------------7-5'---AH--------|
|-------------------||----------------------------------------7-5---------|
|-------------------||--------------------------------------------7-5\3---|
|-------------------||--------------------------------------------------5-|

1 1 1 1/2 1
|-------------------8'--8'~~~~-8-5----5-----------------------------------|
|----------------------------------8'---8'~~~~----------------------------|
|------------------------------------------------------5~~~~~~-7/9-7------|
|----------------------------------------------3-3-5/7--------------------|
|-----------------X-------------------------------------------------------|
|3'~~~~~~(3)/12\--X-------------------------------------------------------|
1 1/2
Harm. 2 v 6* rake 1 1 1 1 2
|5----(5)\-/--\-----------------------------------------------------------|
|--------------------------13^-13'`'`'-13^-10----10~~~~~(10)\-------------|
|----------------X-------X--------------------12--------------11/12-11----|
|----------------X--------------------------------------------------------|
|----------------X--------------------------------------------------------|
|------------------3/5----------------------------------------------------|
* - Note is bent with whammy bar
1 1/2
|------------------------------PM--8'~~~~~~~`-5-8'-5---5~~~~~-------------|
|----------------------------------------------------8--------6-6-(8)/10--|
|9\7-9/11-9\7-7/9\2-2-2~~~~~~~/(0)----------------------------------------|
|-------------------------------------------------------------------------|
|-------------------------------------------------------------------------|
|-------------------------------------------------------------------------|
3 3
v v Harm. 1 1 1
|8~~~-10/12-10-(10)-10-------------20'-20-17------------------------------|
|-------------------10-----------------------20^-17--------20'~~~~~~~~-X\-|
|---------------------trem.---19--------------------19'-17-------------X\-|
|----------------------0------19---------------------------------------X\-|
|-------------------------------------------------------------------------|
|-------------------------------------------------------------------------|

1/2 1 1 1 1/2
|------------P----------------------------------------------17-20'-17-----|
|-------------0-15'~~~~~~-------------------15-18'~~~~~-20'-----------20--|
|11^-9-(9)/13-0-----------9-11-12~~~(12)/16-------------------------------|
|-------------------------------------------------------------------------|
|-------------------------------------------------------------------------|
|-------------------------------------------------------------------------|

1 AH 1/2
|17~~~~~~~~------trem.-------------------------------------------------3--|
|-----------20'~~~~~~~~~~-----------3---------3-------------3----3-4-5----|
|-------------------------3~~~~~~-5---3~~~~-5---3-5-3-5~~~~---5'----------|
|-------------------------------------------------------------------------|
|-------------------------------------------------------------------------|
|-------------------------------------------------------------------------|
3 1 3
1 1 1 v v \
|6---3--------------------------------------------------------------------|
|--5---5~~~~-3\1------AH----------------------------------/X-AH--P---P----|
|----------------3^^^^-3^^^~~~~~------P---P---------------/X-0--3-0-3-0---|
|----------------------^---------3/5\3-2-3-2---P-H--------/X--------------|
|---------------squeal this note-------------1^-0--P----------------------|
|-------------------------------------------------1-0-(0)-----------------|


|-------------------------------------------------------------------------|
|---P-----P---P-----P------P----P------P-------P----P------P---------P----|
|0-5-0-0-6-0-6-0-0-7-0-0-10-0-10-0-0-12-0-15-15-0-15-0-0-17-0-0-19/20-0-21|
|-------------------------------------------------------------------------|
|-------------------------------------------------------------------------|
|-------------------------------------------------------------------------|

P P P P P
|------------------------------------22-15-22-15-15-21-15-15-20-15-20-15--|
|--P------P-------------H-----P--0-0--------------------------------------|
|21-0-0-19-0-19/20-20\19-21-21-0------------------------------------------|
|-------------------------------------------------------------------------|
|-------------------------------------------------------------------------|
|-------------------------------------------------------------------------|

P P P H H P P P P H H P P
|---20-15-18-20-18-15-18-15-17-18-17-15----15-18-20-18-15-19-15-17-18-17--|
|18-------------------------------------18--------------------------------|
|-------------------------------------------------------------------------|
|-------------------------------------------------------------------------|
|-------------------------------------------------------------------------|
|-------------------------------------------------------------------------|
2
P 1 v
|15------------P--P-------------------------------------------------------|
|---18-15-17-18-17-15----15------P---18'....(18)~~~~~~----/X----trem.-----|
|---------------------18----18-17-15----------------------/X--0--14.......|
|---------------------------------------------------------/X--------------|
|------------------------------------------------------4------------------|
|-------------------------------------------------------------------------|
4 2 2 7 6
\ / v \ / 1 H P
|-------------------trem.--------------------------17'-17-14-17-14----14--|
|------H--------------17..........\-H------------------------------17-----|
|(14)\--11~~~~~~~\8-0-17..........\--14~~~~~~~~~~\------------------------|
|--------^----------------------------^-----------------------------------|
|----Depress-bar------------------Depress-bar-----------------------------|
|--before-sounding--------------before-sounding---------------------------|
note note
1/2 1
|-----P-----------------------------P---------------------------17-17-----|
|14-17-14---P--------P--H--H---14-17-14----14------P--------20'-------20'-|
|---------17-16-17-16-14-16-17----------17----17-16-14/16-0---------------|
|-------------------------------------------------------------------------|
|-------------------------------------------------------------------------|
|-------------------------------------------------------------------------|

1 1 1 1 1 1/2
|17-----17-----17-20^-17----------------17'-`-14^-------------------------|
|---20'----20'-----------20'~~~~~~~~\-------------15-13\12----------------|
|----------------------------------------------------------14-12\11-------|
|-------------------------------------0-----------------------------12-10/|
|-------------------------------------------------------------------------|
|-------------------------------------------------------------------------|

1
|-------------------------------------------------------------------------|
|------------------------------------------/X\-------------9-10-11-12-12--|
|------------------------------------------/X\---9~~~~-11'----------------|
|12--------------P-------------------------/X\-0--------------------------|
|---10/12\10\9-10-9-7/9\7\5-7\5-2-2/5~~~~~~-------------------------------|
|-------------------------------------------------------------------------|

1 trem.
|--------------------12------------16-17-18-19-20-21-22~~~~~~~~~~~~-------|
|11-12-13-14-15~~~~~----17~~~~-19'----------------------------------------|
|-------------------------------------------------------------------------|
|-------------------------------------------------------------------------|
|-------------------------------------------------------------------------|
|-------------------------------------------------------------------------|
back to first part:
PM 1/2 1/2
|-------------------------------------------------------------------------|
|---10-----------------------------------10---10--------------------------|
|-9----9--11'-`-9-7-9/11-9-9~~~~~~~~~~~~----9----9-11'-`-9-7-7/9..../12---|
|-------------------------------------------------------------------------|
|-------------------------------------------------------------------------|
|-------------------------------------------------------------------------|

1/2 1/2
|-------------------------------------------------------------------------|
|-----------------------10------------------------------------------------|
|---AH----------------9----9-11-11'~~`-9\7/9-11-11'~~`--9\7-9/11-9~~~~~~~~|
|12\7.......(7)\5/7-------------------------------------------------------|
|-------------------------------------------------------------------------|
|-------------------------------------------------------------------------|

1/2 1 H 1 1
|--H------------------------------------------------10-12----8'-8'~~~~~-5-|
|10-12-14-14'-`-12~~~~----------------trem.---10/20-------12--------------|
|---------------------14-14'.....`-14~~~~~~~~-----------------------------|
|-------------------------------------------------------------------------|
|-------------------------------------------------------------------------|
|-------------------------------------------------------------------------|

1/2 1 1 1/2 1 1 1 1 1/2
|---5------5-5---------------------------------------8'-8'~~~~-8-5----5~~~|
|8'---8'~~~--5-----------------------------------------------------8'-----|
|--------------7'-`-5'----------------------------------------------------|
|----------------------7\5------------------------------------------------|
|--------------------------5\3/5-3-----AH---------PM----------------------|
|----------------------------------3'-`'~~~~~~/15\-0----------------------|
1 1/2 1
\/ \ 1 1 2
|(5)/17-------------------------------------------------------------------|
|----------------------------Harm-------13^-13^^'-^-10----10~~~~----------|
|---------------5~~~~~7/9-7-X-12-----------------------12-------11/12-----|
|-------3-3-5/7-------------X-------X-------------------------------------|
|-----------------------------------X-------------------------------------|
|-------------------------------------0-----------------------------------|

PM 1 1/4
|--------------------------------------------8'~~~~8-5-8'-5---5~~~~~X-----|
|-----------------------------AH-----------grad.------------8---------6~~~|
|(12)-11\9\7-9/11\9\7-7/9\2-2-2~~~~~~~~~/--bend---------------------------|
|-----------------------------------------0-------------------------------|
|-------------------------------------------------------------------------|
|-------------------------------------------------------------------------|
1/2
v 1 1 1 1 1
|----------8~~~~~-10/12-10~~~~~~-------------20'-`-17---------------------|
|(6)~-8/10-----------------------13'-'~~~~~0----------20'-17--------20'~~~|
|------------------------------------------------------------19^-17-------|
|-------------------------------------------------------------------------|
|-------------------------------------------------------------------------|
|-------------------------------------------------------------------------|

1/2 1 1/2 1 1/2 1
|---------------------------------------5-8'-5---5...----trem.------------|
|X\-------15'~~~~~---------18'~~~~~--8'--------8------8'~~~~~~~~------15'~|
|X\--------------------------------0--------------------------------------|
|X\-----------------------------------------------------------------------|
pick----------------------------------------------------------------------|
|sl.-2^-0----------0-2-3\0---------------------------------------2^-0-----|

1 1 1/2
|-------------------------------17-20'-17----17.................----------|
|(15)~~------------18'~~~~~-20'-----------20------------------------------|
|-------------------------------------------------------------------------|
|-------------------------------------------------------------------------|
|---------------P---------------------------------------------------------|
|-------0-2-3/15-0--------------------------------------------------------|

H P 1/2 H P
|15-17-15\14\12\10/12-12/14-12\10-10/12~~~~~~-14-(14)^-12-14-12\10\9------|
|-------------------------------------------------------------------------|
|-------------------------------------------------------------------------|
|-------------------------------------------------------------------------|
|-------------------------------------------------------------------------|
|-------------------------------------------------------------------------|

H P P H P P P P P P H P P
|10\9\7\5\3-3/5~~~~~-7-5-7-5-0-7-9-0-9/10-0-10/12-0-9/10-0-7-0-5-0-3-5-3-0|
|-------------------------------------------------------------------------|
|---------------------------------very fast little licks------------------|
|-------------------------------------------------------------------------|
|-------------------------------------------------------------------------|
|-------------------------------------------------------------------------|

H P P H P P H P P
|2-3-2-0-3-5-3-0-2-3-2-0--H-P-P---H-P-P---H-P-P---H-P-P---H-P-P---P-AH----|
|------------------------3-5-3-0-2-3-2-0-3-5-3-0-5-7-5-0-3-5-3-0-2-0-3/5..|
|-------------------------------------------------------------------------|
|-------------------------------------------------------------------------|
|-------------------------------------------------------------------------|
|-------------------------------------------------------------------------|

Fdbk.
|--------------------------pitches:---------------------------------------|
|(5)...../17\-----------------A-----------C#-------------E-----trem.------|
|--------------2............-(2).........(2)............(2)~~~~~~~~~~~~~~~|
|--------------2............----------------------------------------------|
|--------------0............----------------------------------------------|
|-------------------------------------------------------------------------|

Fdbk. Harm.-------| Harm.-------| Harm.-------|
continues-----------------------------------------------------------------|
|-------------------------------------------------------------------------|
|(2).....-------5----------------------5---------------------5------------|
|-------------5---5------------------5---5-----------------5---5----------|
|---------5-4-------4-5----------5-4-------4-5---------5-4-------4-5------|
|-------------------------------------------------------------------------|

Harm.-------|
|-------------------------------------------------------------------------|
|-------------------------------------------------------------------------|
|-------5-----------------------------------------------------------------|
|-----5---5---------------------------------------------------------------|
|-5-4-------4-5-----------------------------------------------------------|
|-------------------------------------------------------------------------|
Outro Solo:

|--------------------------------------------------------P----------------|
|------H---12....-------------12...------------12-14~~~~~-12---------H--P-|
|-14-12-14--------14-12...-14-------14-12..-14---------------14-12\11-12--|
|-------------------------------------------------------------------------|
|-------------------------------------------------------------------------|
|-------------------------------------------------------------------------|


|----------------------------------------17-------15-------14-------12----|
|P--H--P---------------------------12/15----15\14----14\12----12\10----10\|
|-11-12-11\7-7/9-9/11\9-9~~~~~~~~~----------------------------------------|
|-------------------------------------------------------------------------|
|-------------------------------------------------------------------------|
|-------------------------------------------------------------------------|

H P P
|---10-----9-----7-----5-----3-2-3-2-0----H-P-P---------------------------|
|\8----8\7---7\5---5\3---3\2-----------3-2-3-2-0------P-------------------|
|------------------------------------------------2/4\2-0---AH-------------|
|--------------------------------------------------------2/7~~~~~~~/X-----|
|---------------------------------------------------------------------X---|
|---------------------------------------------------------------------X---|

1 1 AH
|17'-`-19'-17~~~~~~~~~(17)~~~~~\15-19-15-14------P------------------------|
|-------------------------------------------15-14-12----------------------|
|----------------------------------------------------12\11---------11-----|
|----------------------------------------------------------12\11\9----9\7-|
|-------------------------------------------------------------------------|
|-------------------------------------------------------------------------|

1/2 H
|------------------------------------------------------------H--0-2/3-0-5-|
|--------------------------------------H-H---------------P--3-5-----------|
|9-------7/9---------0-11/12------H---0-9-11--H-H-----7\4-0---------------|
|--7\5-5-----7'-7~~~---------12\11-12--------0-9-11-0---------------------|
|-------------------------------------------------------------------------|
|--------------------Starting here, very fast licks (16th notes)----------|

H H H 1
|7--H-P----0-3-5--H-H-----------------------------------------------------|
|--5-7-5-5-------0-3-5--H-H----------------------------------12'~~~~~~~~~~|
|----------------------0-4-6--H-H-----------------------------------------|
|----------------------------0-4-5--H-H----4/5------P-H-------------------|
|----------------------------------0-4-5-0-----0-4/5-0-2-2-0--------------|
|------------------------------------------------(ends here)--------------|

-Gtr. I keep repeating this- -Gtr. II plays this until fade out---
|-----------until fade out----------|-------------------------------------|
|-----------------------------------|-------------------------------------|
|------1------1------1------1-------|-------------------------------------|
|------v------v------v------v-------|-----5-------------5-----------------|
|12\0----0-0----0-0----0-0----0-0---|-5-4---4-5-----5-4---4-5-------------|
|-----3'-----3'-----3'-----3'-------|-------------------------------------|
 

Benutzer75173 

Verbringt hier viel Zeit
RJD2 - Smoke & Mirrors




Who knows what tomorrow will bring,
Maybe sunshine, maybe rain,
But as for me always the same,
Maybe it'll bring my love to me.

NO

Who knows what tomorrow will bring,
Maybe sunshine, maybe rain,
But as for me always the same,
Maybe it'll bring my love to me.

NO

Sometimes I feel rainy days.
Just to let you know,
It's happening to me,
Alright.
 

Benutzer77618  (35)

Verbringt hier viel Zeit
ASP~ Ich will brennen

Komm Mir nicht zu nah, sonst kann's geschehen
Daß Wir beide lichterloh in Flammen stehen...
 
I

Benutzer

Gast
Rhapsody - Power Of The Dragonflame

Rise mighty dragon...
Rise, rise, rise, rise...
Mighty dragon rise!

Ruins of ancient wisdom closing now my darkest lonely eye
god is dead in Thorald and in Elnor's rhyme
Mutilated bodies are now carved in ancient holy stone
tragic decoration of unholy wars

The heart of the dragon is screaming awaiting
to write the black last page
The page of blood was written by them...
the dead now lying on the sand

Visions of disaster are now challenging the wild storms
cyclops of the midlands wash my bloody shore
Sirens from the open seas now heal my broken wounded brain
I call the holy typhoons... air, fire, earth!

The heart of the dragon is screaming awaiting
to write the black last page
The page of blood was written by them...
the dead now lying on the sand

FROM THE SILENT HILL WE SCREAM LOUD YOUR NAME
MIGHTY POWER OF THE DRAGONFLAME
FROM THE MOUNTAINS PROUD AND STRONG
WE CALL OUR DRAGONLORD

Mighty dragon rise... rise!

Energie di cosmi estinti gridano sangue
dalle terre dell'ignoto senza pieta'

The heart of the dragon is screaming awaiting
to write the black last page
The page of blood was written by them...
the dead now lying on the sand

FROM THE SILENT HILL WE SCREAM LOUD YOUR NAME
MIGHTY POWER OF THE DRAGONFLAME
FROM THE MOUNTAINS PROUD AND STRONG
WE CALL OUR DRAGONLORD
 

Benutzer85885 

Sorgt für Gesprächsstoff
Cocoon - Follow Me

Kennt fast niemand aber toll ♥
Oder.:
Gabriella Climi - Sweet About Me
Sugarcult - Over ♥ ♥ ♥
The Ting Tings - That's Not My Name

Hach es gibt so viele tolle Lieder :herz:
 
J

Benutzer

Gast
Element Eigthy-Broken Promises aber sowas von....:angryfire
deutsche übersetzung

An dem Tag an dem du mich verlassen hast
da war dieses Gefühl das ich noch nie gezeigt habe
An dem Tag ab den du es mir sagtest
da waren die Worte die ich noch nie gekannt habe
Und nun ist es vorbei
Also was ist noch da was ich jemals fühlen sollte
denn seit dem Tag an dem du mich verlassen hast fühle ich mich so alleine

Und nun sind wir mit gebrochenen Versprechen zurückgelassen
mein Herz hält nicht noch mehr aus
Und nun sind wir mit gebrochenen Versprechen zurückgelassen
meine Seele hat genug

Tief in mir
da sind Dinge die ich nie gesagt habe
sie brennen in mir
und jetzt muss ich wissen
Warum versuchst du mir alles wegzunehmen
Nun, ich bitte dich
Ich bin hier zurückgelassen mit nichts was ich zeigen kann
denn seit dem Tag an dem du mich verlassen hast fühle ich mich so alleine

Und nun sind wir mit gebrochenen Versprechen zurückgelassen
mein Herz hält nicht noch mehr aus
Und nun sind wir mit gebrochenen Versprechen zurückgelassen
meine Seele hat genug

Sieh dir an wie du dich gegen mich gewandt hast
Du ranntest weg und ließt mich hier zurück mit nichts was zu sehen
Ich bin ein Mann also dreh dich um und sag es zu mir
Denkst du nicht dass ich etwas zu sagen habe
Sieh dir an wie du dich gegen mich gewandt hast
Du ranntest weg und ließt mich hier zurück mit nichts was zu sehen
Ich bin ein Mann also dreh dich um und sag es zu mir
Denkst du nicht dass ich etwas zu sagen habe
Sieh dir an wie du dich gegen mich gewandt hast
Du ranntest weg und ließt mich hier zurück mit nichts was zu sehen
Ich bin ein Mann also dreh dich um und sag es zu mir
Denkst du nicht dass ich etwas zu sagen habe

Und nun sind wir mit gebrochenen Versprechen zurückgelassen
mein Herz hält nicht noch mehr aus
Und nun sind wir mit gebrochenen Versprechen zurückgelassen
meine Seele hat genug
Und nun sind wir mit gebrochenen Versprechen zurückgelassen
mein Herz hält nicht noch mehr aus
Und nun sind wir mit gebrochenen Versprechen zurückgelassen
meine Seele hat genug
 

Benutzer85796 

Benutzer gesperrt
betontod - all die jahre

Was du heute kannst besorgen
das verschiebe ruhig auf morgen
wenn du heute nicht mehr weißt
wie es weitergeht
doch auch morgen ist vielleicht
wieder nicht dein bester Tag
und dein Schicksal hat dich wiedermal so richtig ausgelacht

was willst du morgen besser machen
was schon heut nicht funktioniert?
wie viel Fehler willst du noch einmal begehn?
was willst du morgen besser machen
was schon heut nicht funktioniert?
um endlich Aufzuwachen und es zu verstehen?

steck den Kopf ruhig in den Sand
denn dort fühlst du dich so wohl
und Niemand stört dich mit dir selbst
ohne dich bist du verlorn
denn wer soll dich noch bedauern
wenn dich eh Niemand versteht
und so vergehen all die Jahre
bis du selbst daran vergehst

was willst du morgen besser machen
was schon heut nicht funktioniert?
wie viel Fehler willst du noch einmal begehn?
was willst du morgen besser machen
was schon heut nicht funktioniert?
um endlich Aufzuwachen und es zu verstehen?
 

Benutzer71059 

Verbringt hier viel Zeit
Brennen - Früchte des Zorns

Brennen- Früchte des Zorns :geknickt:


Ja ich will leben - will nicht nur atmen
Nein ich will brennen, und es gibt nichts zu verlieren
Lieber drei Jahre Abenteuer
Als dreißig Jahre lang am Leben zu erfriern

Ja ich will leben - das heißt auch kämpfen
Gegen das Sterben - und das ist auch Teil von mir
Ja ich will leben - lebendig kämpfen
Ja ich will brennen - zusammen mit dir

Wir sind alle hier wie die Tiere
Domestiziert und eingesperrt
Und wir laufen ganz gut im Getriebe
Voll stummer Schreie, die keiner hört

Und wir erzählen uns schon, das hier wär das Leben
Doch hinterm Riegel fängt das Leben doch erst an
Und Leben ist mehr als ein Pulsschlag
Und ein paar Perlen zum Gesang

Und du hör auf, hör auf, mir zu erzählen
Es gibt nichts Anderes, viel zu lang hab ich‘s geglaubt
Du hast mich um meine Träume
Und meine Tränen so lang beraubt

Du hast mich um meine Träume
Und meine Tränen so lang beraubt

Frag dich selbst, bist du glücklich mit deinem Leben?
Ist das, was du machst, wirklich das, was du machen möchtest?
sparst du Zeit, und wofür sparst du sie?
Wenn es einen Film über dein Leben gäbe, würdest du ihn anschauen, würde er dich faszinieren?

Sechs Euro für eine Stunde auf der Arbeit - was würdest du zahlen für eine Stunde an einem sonnigen Tag im Park?
Drei Kaffee auf der Raste kosten soviel wie eine Stunde deines Lebens!
Würdest du in deinem Leben etwas anders machen, wenn du wüsstest, dass du nächstes Jahr sterben würdest?
Wer sagt dir, dass du dann überhaupt noch lebst?
Jeder Moment Leben, der dir aus der Gegenwart geklaut wird, ist einer, der verloren sein wird für immer!
Hast du Ideen, oder haben Ideen dich?
Fühlst du dich auch manchmal auf eine bestimmte Art und Weise einsam, eine Art, die dich fast zerfrisst?
Fühlst du dich auch manchmal auf eine bestimmte Art und Weise einsam, auf eine Art, die Worte nicht beschreiben können?

Du bist dein Ticket aus diesem Käfig - du bist dein Ticket aus dieser Welt
Wir liegen alle in der Gosse - und voller Sterne ist die Welt
Wir liegen alle in der Gosse - und voller Sterne ist die Welt
Wir liegen alle in der Gosse - und voller Sterne ist die Welt
 

Benutzer58449  (32)

Planet-Liebe ist Startseite
Giving up von Ingrid Michaelson

What if we stopped having a ball
What if the paint chips from the wall
What if there's always cups in the sink
What if I'm not what you think I am
What if I fall further than you
What if you dream of somebody new
What if I never let you win-- chase you with a rolling pin-- Well, what if I did?

Chorus:
Cause I am giving up on making
passes, and I am giving up on half empty glasses, and I am giving up on greener grasses. I am giving up.

What if our baby comes in after nine
What if your eyes close before mine

If you lose yourself sometimes, I'll be the one to find you safe in my heart.

Chorus:
Cause I am giving up on making
passes, and I am giving up on half empty glasses, and I am giving up on greener grasses. I am giving up.
 

Benutzer11643 

Verbringt hier viel Zeit
Ich & Ich: So soll es bleiben

Und ich fühl mich dabei gerade richtig gut!
 
Oben
Heartbeat
Neue Beiträge
Anmelden
Registrieren